Freight-Train (Djitare Picking)

Cha vient éd Wikipedia
Sauter à la navigation Sauter à la recherche

Djitare picking : Freight-Train[éditer | modifier ech wikicode]

Acouter l'musique[éditer | modifier ech wikicode]


Vir chés notes[éditer | modifier ech wikicode]

Crystal Clear mimetype pdf.png (PDF) "Picking Freight-Train" (info)


Conmint juer cha[éditer | modifier ech wikicode]

  • (in inglé) Freight Train Tommy Emmanuel lesson
http://www.youtube.com/watch?v=T1ubq-CcILU&feature=fvw

Tablature:

L'mélodie ch'est chés notes aveuc des ( ).


   C       Cadd11       C       Cadd9          C       Cmaj7        C       Cadd9
||--(3)-----(1)--------|-(0)----------------|--------------------|-------------------|
||o-----1---------1----|-----1---(3)--------|-(1)-----(0)--------|-(1)-----(3)-------|
||---------------------|---------------0----|-----0---------0----|-----0---------0---|
||--------2---------2--|-------2---------2--|-------2---------2--|-------2---------2-|
||o--3----------3------|--3----------3------|--3----------3------|--3----------3-----|
||---------------------|--------------------|--------------------|-------------------|
  ..sol......fa...........mi......ré..........do.......si...........do.......ré.......
    G       G7           G6      G             Gsus4   G            Gsus4   G
  |-(3)-----(1)--------|-(0)----------------|--------------------|---------------------||
  |-----0---------0----|-----0---(3)--------|-(1)-----(0)--------|-(1)-----(3)--------o||
  |--------------------|---------------0----|-----0---------0----|-----0---------0-----||
  |-------0---------0--|-------0---------0--|-------0---------0--|-------0---------0---||
  |--------------------|--------------------|--------------------|--------------------o||
  |--3----------3------|--3----------3------|--3----------3------|--3----------3-------||
  ..sol......fa...........mi......ré..........do.......si...........do.......ré.......


  F                    F6        F
|--------------------|---------------------|
|--1------1----------|--1h=3-----1---------|
|-----2---------2----|-------2---------2---|
|-------3---------3--|---------------------|
|--------------------|---------3---------3-|
|--1---------1-------|--1-----------1------|


  F/A                  F6/A      F/A
|--------------------|---------------------|
|--1------1----------|--1h=3-----1---------|
|-----2---------2----|-------2---------2---|
|-------3---------3--|---------3---------3-|
|--0---------0-------|--0-----------0------|
|--------------------|---------------------|


  F                    F6        F
|--------------------|---------------------|
|--1------1----------|--1h=3-----1---------|
|-----2---------2----|-------2---------2---|
|--3---------3-------|--3-----------3------|
|-------0---------0--|---------0---------0-|
|--------------------|---------------------|


WCML freight train.jpg


Vir itou[éditer | modifier ech wikicode]

  • (in inglé) Beginning fingerstyle guitar : Learn Freight train 1 + tablature
http://www.youtube.com/watch?v=Z3RArufrbgw&feature=related
  • Freight Train - Chet Atkins
http://www.youtube.com/watch?v=OsyiTD9ENB8&NR=1&feature=fvwp